Connexion
La date/heure actuelle est Dim 23 Sep - 06:30 (2018)
Voir les messages sans réponses
Fire allias comme nicos

 
Poster un nouveau sujet   Répondre au sujet    Astorya Index du Forum -> La cour d'Astorya (Partie Membres) -> Tronchebook
Sujet précédent :: Sujet suivant  
Auteur Message
Firethroät
Officier

Hors ligne

Inscrit le: 01 Juin 2010
Messages: 51
Localisation: Vesoul !!!
Moniteur Masculin Sagittaire (22nov-21déc)

MessagePosté le: Ven 4 Juin - 00:36 (2010)
Sujet du message: Fire allias comme nicos
Répondre en citant

KIKOO LES NEWBIES !!!

Bon, je me présente pour ceux qui ne me connaitraient pas, je m'appelle Roger j'ai 44 ans et je suis boulanger dans l'Oise

Pour ce qui est de wow et bien j'y joue depuis le début c'est-à-dire il y a 2 ans 1/2 et mon expérience pré baissé est fortement remplie par les raid 30 que j'ai pu faire avec des grosses guildes comme <Fat> ou <Enormous> voire <Gigantum>, sinon à baisé j'ai joué mon hunt mais personne n'avait de ceinture dans son inventaire au moment des raids donc j'ai du delete (une triste histoire, je me suis tellement branlé sur la chat que ça à donné l'image ci contre)

SInon à wel'teka j'ai monté ma fufu lvl 37 où j'ai pu facilement enfin faire le Kraal de Tranchebauge

Sinon mon numéro de téléphone est le 06 45 18 75 43 (attention c'est celui de Ragnas *Edit*) et je suis dispo pour toute partie de pêche ou de pétanque près de chez moi en Alsace

J'éspère que votre genou se remettra très vite et qu'on pourra venir manger les saucisses au barbeuc mardi matin.

Ketchup, Yaourts, Lait, PQ, Capotes, Filtres anti spam pour le café (j'aime pas le flood dès le matin)

Code:






B-----5-----5-----|---5-------3-----|---1---1-----1---|-0-1-1-----------|
G---5---------5---|-----5-------2---|-----2---------2-|-0-2-2-----------|
D-7-------6-------|-5-------4-------|-3---------------|-----------------|
A-----------------|-----------------|-----------------|-2-0-0---0--/8-7-|
E-----------------|-----------------|-----------------|-----------------|
 
E---------7-----7-|-8-----8-2-----2-|-0---------0-----|-----------------|
B-------5---5-----|---5-------3-----|---1---1-----1---|-0-1-1-----------|
G-----5-------5---|-----5-------2---|-----2---------2-|-0-2-2-----------|
D---7-----6-------|-5-------4-------|-3---------------|-----------------|
A-0---------------|-----------------|-----------------|-2-0-0-------0-2-|
E-----------------|-----------------|-----------------|-----------------|
 
E-------0-2-----2-|-0-----0----------|---------3-----3-|
B-----------3-----|---1-----0h1------|-1-----1---0-----|
G-----0-------2---|-----2-------2----|---0---------0---|
D---2-----0-------|-3----------------|-----2-----------|
A-3---------------|---------0----0-2-|-3---------------|
E-----------------|------------------|---------3-------|
                                                               Intro end.
E---------2-----2-|-0-----0----------|---------------2-|-0-0-0-----------|
B-------1---3-----|---1-----0-1------|-------1-----3---|-1-1-1-----------|
G-----0-------2---|-----2-------2----|-----0-----2-----|-2-2-2-----------|
D---2-----0-------|-3----------------|---2-----0-------|-3-3-3-----------|
A-3---------------|---------0----0-2-|-3---------------|-----------------|
E-----------------|------------------|-----------------|-----------------|






Voici la photo promise de mon désarroi transformé en pluie de sperme sur mon pauvre chat, il l'avait mauvaise...

[url:0df86a7efb=http://astorya.xooit.fr/image/41/3/1/3/animaux-056-6cc544.jpg.htm]

[/url:0df86a7efb]
_________________
Sauvez un chat, mangez un Fire !


Dernière édition par Firethroät le Sam 5 Juin - 00:31 (2010); édité 2 fois
Revenir en haut
Skype
Publicité






MessagePosté le: Ven 4 Juin - 00:36 (2010)
Sujet du message: Publicité

PublicitéSupprimer les publicités ?
Revenir en haut
Ragnas
Officier

Hors ligne

Inscrit le: 01 Juin 2010
Messages: 70
Localisation: Paris
Etudiant Masculin Capricorne (22déc-19jan)

MessagePosté le: Ven 4 Juin - 17:58 (2010)
Sujet du message: Fire allias comme nicos
Répondre en citant

té je savais pas que jallais en alsace cet été
_________________
Firethroat rageux spotted!


Revenir en haut
Visiter le site web du posteur ICQ AIM Yahoo Messenger MSN GTalk/Jabber Skype
Firethroät
Officier

Hors ligne

Inscrit le: 01 Juin 2010
Messages: 51
Localisation: Vesoul !!!
Moniteur Masculin Sagittaire (22nov-21déc)

MessagePosté le: Ven 4 Juin - 18:01 (2010)
Sujet du message: Fire allias comme nicos
Répondre en citant

Non, c'est dans le var
_________________
Sauvez un chat, mangez un Fire !


Revenir en haut
Skype
Ragnas
Officier

Hors ligne

Inscrit le: 01 Juin 2010
Messages: 70
Localisation: Paris
Etudiant Masculin Capricorne (22déc-19jan)

MessagePosté le: Ven 4 Juin - 19:22 (2010)
Sujet du message: Fire allias comme nicos
Répondre en citant

Le quoi?
_________________
Firethroat rageux spotted!


Revenir en haut
Visiter le site web du posteur ICQ AIM Yahoo Messenger MSN GTalk/Jabber Skype
Firethroät
Officier

Hors ligne

Inscrit le: 01 Juin 2010
Messages: 51
Localisation: Vesoul !!!
Moniteur Masculin Sagittaire (22nov-21déc)

MessagePosté le: Ven 4 Juin - 19:28 (2010)
Sujet du message: Fire allias comme nicos
Répondre en citant

J'habite en Normandie en fait
_________________
Sauvez un chat, mangez un Fire !


Revenir en haut
Skype
Ragnas
Officier

Hors ligne

Inscrit le: 01 Juin 2010
Messages: 70
Localisation: Paris
Etudiant Masculin Capricorne (22déc-19jan)

MessagePosté le: Ven 4 Juin - 19:56 (2010)
Sujet du message: Fire allias comme nicos
Répondre en citant

Cool love le camembert
_________________
Firethroat rageux spotted!


Revenir en haut
Visiter le site web du posteur ICQ AIM Yahoo Messenger MSN GTalk/Jabber Skype
Gudrule
Officier

Hors ligne

Inscrit le: 02 Juin 2010
Messages: 15
Localisation: Besançon
Masculin Balance (23sep-22oct)

MessagePosté le: Sam 12 Juin - 01:43 (2010)
Sujet du message: Fire allias comme nicos
Répondre en citant

ixdé pétédéer de laule

Revenir en haut
Ragnas
Officier

Hors ligne

Inscrit le: 01 Juin 2010
Messages: 70
Localisation: Paris
Etudiant Masculin Capricorne (22déc-19jan)

MessagePosté le: Mer 16 Juin - 12:52 (2010)
Sujet du message: Fire allias comme nicos
Répondre en citant

Bonjour.
_________________
Firethroat rageux spotted!


Revenir en haut
Visiter le site web du posteur ICQ AIM Yahoo Messenger MSN GTalk/Jabber Skype
Firethroät
Officier

Hors ligne

Inscrit le: 01 Juin 2010
Messages: 51
Localisation: Vesoul !!!
Moniteur Masculin Sagittaire (22nov-21déc)

MessagePosté le: Mer 16 Juin - 17:31 (2010)
Sujet du message: Fire allias comme nicos
Répondre en citant

Comment ?
_________________
Sauvez un chat, mangez un Fire !


Revenir en haut
Skype
Ragnas
Officier

Hors ligne

Inscrit le: 01 Juin 2010
Messages: 70
Localisation: Paris
Etudiant Masculin Capricorne (22déc-19jan)

MessagePosté le: Mer 16 Juin - 18:19 (2010)
Sujet du message: Fire allias comme nicos
Répondre en citant

J'ai pas raison?
_________________
Firethroat rageux spotted!


Revenir en haut
Visiter le site web du posteur ICQ AIM Yahoo Messenger MSN GTalk/Jabber Skype
Contenu Sponsorisé






MessagePosté le: Aujourd’hui à 06:30 (2018)
Sujet du message: Fire allias comme nicos

Revenir en haut
Montrer les messages depuis:   
Poster un nouveau sujet   Répondre au sujet    Astorya Index du Forum -> La cour d'Astorya (Partie Membres) -> Tronchebook Toutes les heures sont au format GMT + 2 Heures
Page 1 sur 1

 
Sauter vers:  

Index | Panneau d’administration | créer un forum | Forum gratuit d’entraide | Annuaire des forums gratuits | Signaler une violation | Conditions générales d'utilisation
Powered by phpBB © 2001, 2005 phpBB Group
GW Alliance theme by Daniel of Gaming Exe
Traduction par : phpBB-fr.com